Saturday, January 15, 2011

Insert Song Episode 8 K-On - Watashi no Koi wa Hocchikisu

Artist: Mio Akiyama - Yui Hirasawa

Intro:
A# F
A# G

|----8~-----10---8---6------------------------6----------------------8--?--?--8--?--?--8--?--?--8--------|
|----------------------------10---8~------10------10----------------5--?--?--5--?--?--5--?--?--5---------|
|-----------------------------------------------------------5~----5-----5--?--?--5--?--?--5--?--?--5---5~--|
|------------------------------------------------------------------------------------------------------------------|
|------------------------------------------------------------------------------------------------------------------|
|------------------------------------------------------------------------------------------------------------------|

|----8~-----10---8---6------------------------------6----------------------|
|----------------------------10---8~----8~---------------10---6---8~----|
|-------------------------------------------------10--------------------------|
|-------------------------------------------------------------------------------|
|-------------------------------------------------------------------------------|
|-------------------------------------------------------------------------------|

F C
nande nan daro ki ni naru yoru kimi e no
Dm C
kono omoi bin sen ni ne
A# C
kaite miru yo
F C
moshikashite kimagure ka mo shirenai
Dm C
sore na no ni maisuu dake
A# C
fuete yuku yo

A# Am Dm
suki no kakuritsu waridasu keisan shiki
A# C
areba ii noni

Reff 1:
F Am
kirakira hikaru negai goto mo
Dm C
guchagucha hetaru nayami goto mo
A# Am G C
souda hocchikisu de tojichaou
F C
hajimari dake wa karui nori de
Dm D#
shiranai uchi ni atsuku natte
G Am A# C
mou hari ga nandaka tooranai rara
mata ashita

#Bass:
|---------------------------------------------------------------------------------|
|---------------------------------------------------------------------------------|
|---2--3---3/5---3~--------5/7--5~-------3--3---------------------------|
|--------------------------5---------------3-----------1---3---5---6~--------|

A# C Dm G
A# C

F C
doushiyou ka na yomikaesu no hazukashii
Dm C A# C
are kore to bin sen ni ne kaita kuseni
F C
kimochi goto gomi bako yuki ja nandaka
Dm C A# C
kono mune ga setsunai kara motte you ka na
A#
ima no kimochi wo arawasu
Am Dm A# C
jisho ni mo nai kotoba sagasu yo

Reff 2:
F Am
wakuwaku shichau keikaku to ka
Dm C
gudaguda sugiru tenkai to ka
A# Am G C
zenbu hocchikisu de tojichaou
F C
kyou no dekigoto omoidashite
Dm D#
itsumo kokoro ga kyun to natte
G Am A# C
mou hari ga nai kara kawanakucha rara
mata ashita

D# Dm C# C
Solo:
A# F
A# G

*Back to reff 1

F

6 comments:

  1. Sesuai Permintaaan...
    Mantap Lah....
    *tingal nambain variasi dikit ini.... ^^
    iro iro arigatou ne...

    *nyeting Comment nya gmn sih?? kok slalu tanya URL??...

    ReplyDelete
  2. yap... =)

    Nyetting gmn gtt..!? *ah kyk'y sya jg gx ngerti, msh baru... Hhehe..

    ReplyDelete
  3. sou ka...
    *yg penting bisa comment dah... ^^

    eto... request lg ya...
    (yg "Tensi ni fureta yo" kpn nih...(T.T)a
    K-On - Fude Pen Boru Pen

    arigatou... ^^

    ReplyDelete
  4. hhaha, iya iya, cz skrg sya lg sibuk nguLik 0st rurouni..
    ^^a

    ReplyDelete
  5. gan itu tanda ? maksudnya belum nemu apa gmn gan maap ane bru pemula maen gitar gk ngerti chord

    ReplyDelete
  6. ooh tanda ? sebenernya itu tanda x cuman waktu itu posting di hape, pake tanda x ga bisa ^,^

    ReplyDelete

Silahkan berkomentar, bebas :)