Friday, May 06, 2011

Opening Theme Kuroshitsuji II - Shiver

Artist: the GazettE

Intro: G A Bm

G F#m Bm Em
Tatoe owaru koto no nai
G A Bm
Kanashimi ga anata ubattemo
G F#m Bm Em
Hanarete yuku kokoro nado
G A
Koko ni wa nai to itte

Bm-G-D-A 8x

G
Kakeyotta senaka ni toikakeru ashita ga
Bm
Donna katachi demo
G
Yuruga nakatta no wa mou shinjiru koto wo
Bm
Wasuretaku nakatta kara
G
Me wo sorasu kuse mo aimai na
Bm
Taido mo waraenu uso mo
G
Tonari ni inakereba ima sae
F#m
Nijin de yuku

Reff:
G F#m Bm Em
Tatoe owaru koto no nai
G A Bm
Kanashimi ga anata ubattemo
G F#m Bm Em
Hanarete yuku kokoro nado
G A Bm
Koko ni wa nai to itte

G
Toosugita kono kyori wo umeru kotoba ga
Bm
Mitsukaranai
G
Sugisaru kisetsu no naka de oitsuke naku naru Bm
Koto mo shitteta yo
G
Omoidasu yori mo wasurerarenai
Bm
Hibi to ieta kara
G
Mou kore ijou ga nakute mo
F#m
Uketomereru

Reff 2:
G F#m Bm Em
Douka modoru koto no nai
G A Bm
Toki ni namida wo nagasanai de
G F#m Bm Em
Wasurete yuku kokoro nado
G A Bm
Koko ni wa nai to itte kureru nara

Solo:
G F#m Bm Em
G F#m Bm
G F#m Bm Em
G F#m Bm

G
Ushinai dashita futari no asu na
Bm
Anata ga naiteru
G
Yatto mireta sugao ni wa mou
F#m
Furerarenai

Reff 3:
G F#m Bm Em
Tatoe owaru koto no nai
G A Bm
Kanashimi ga anata ubattemo
G F#m Bm Em
Wasurenai de sayonara ga
G A Bm
Uso to omoeta hibi wo

G F#m Bm Em
Hitorikiri de mita sora mo
G A Bm
Surechigau naka de mita yume mo
G F#m Bm Em
Ano hi no mama nani mo kawarazu
G A Bm
Anata no naka de ima mo zutto

Outro: G F#m Bm Em

|---------15---14~--------------17~----------------
|--17~---------------17--17~----------14--15~---
|------------------------------------------------------
|------------------------------------------------------
|------------------------------------------------------
|------------------------------------------------------

---------15---14~----------------------17--------------|
--17~---------------17--17~---14~--------15~-------|
----------------------------------------------------------|
----------------------------------------------------------|
----------------------------------------------------------|
----------------------------------------------------------|

6 comments:

  1. q kmren donlot gazette yg ini pas lead ini ost kurositsuji II ...
    gila gw ktipu .. yg q donlot bkan lagu gazette mlah gu dangdut sial bgt !! ..
    jhahahahahha ~

    ReplyDelete
  2. Haha, anè juga pernah...
    Anè d0nLot di 4shared, èh pas didengerin jadi Lagunya c Jupe - Belah Duren :S

    ReplyDelete
  3. iya tuch yang itu ~~
    gmna cba klo band gazette sndiri yg donlot pasti mreka pda shock !!! jahahahahhaha

    ReplyDelete
  4. bnr2 ktipu mentah2 tuh ..
    abis pengen.a langsung donlot XD .. jahahahah

    ReplyDelete

Silahkan berkomentar, bebas :)